Jump to content
Sign in to follow this  
belt

(Bass) Killing Boy - Frozen Music

Recommended Posts

This bass line - playing it is beyond fun. No wonder it's pretty much the only thing he plays in the song.

Video, for ye who haven't heard:

Super fun, super awesome.

Killing Boy - Frozen Music

Standard tuning EADG

Main line

|--------------------------------------------------------------------|
|--------------------------------------------------5-55--------------|
|-----------------7-77-7-78-88-7-5-3/5-55-5-5-5-5-5-----8-7-7--------|
|--55-55-5-5-5-5-5--------------------------------------------3-3/5--|

Sometimes he adds an octave after the B note (5th fret) on the A string, 
which would be the 7th fret on the G.

Middle section, at around 3 minutes

This three times
|-----------------------------------|
|----------------------------5---3--|
|--55-55-3-5-5-5-55-55-5-3-5---3----|
|-----------------------------------|

Then it goes into this somewhere
|--------------------5---5-77-55-----------------|
|----------------5-7---7---------75---5----------|
|--55-55-3-55-57--------------------7---7-5-...--|
|------------------------------------------------|
(Something like that, it sounds like he just kinda winged it there)

Then it returns to the line that lead into it, and eventually returns to
the main line. Theres a section at the very end of the song, when it starts
to wind down, and the bass is essentially the same thing as the line in the
mid section, except it originates on the E string instead of the A.

Share this post


Link to post
Share on other sites

Join the conversation

You can post now and register later. If you have an account, sign in now to post with your account.

Guest
Reply to this topic...

×   Pasted as rich text.   Restore formatting

  Only 75 emoji are allowed.

×   Your link has been automatically embedded.   Display as a link instead

×   Your previous content has been restored.   Clear editor

×   You cannot paste images directly. Upload or insert images from URL.

Sign in to follow this  

  • Recently Browsing   0 members

    No registered users viewing this page.

×
×
  • Create New...