Jump to content
Sign in to follow this  
belt

(Bass) Phantasmagoria - Pixy False

Recommended Posts

Got a new bass, going on a kick trying to learn some songs, thought some people might benefit from the tabs i worked out. IDK how many people here play bass, or care about bass tabs but here it is. Should be pretty accurate, I like to think I'm not COMPLETELY tone deaf. There might some minor errors or a missing transitional bit or two, but this is the gist of the song.

Phantasmagoria - Pixy False

Standard tuning EADG


Intro riff, used throughout the song
|-------------------------------------------------------------------|
|-------------------------------------------------------------------|
|-------------------------------------------------------------------|
|--2-2-2-22-22-2-0-3-3-3-30-00-0-0-2-2-2-22-22-2-0-3-3-3-35-55-3-0--|


Verse
|-----------------------------------|
|-----------------------------------|
|-----------------------------------|
|--2-2-2-2-3-3-0-0-2-2-2-2-3-3-5-5--|
The bass is so drowned out in this part, I can barely hear what
the hell he's playing. I'm fairly sure he plays the intro riff 
during the verse, then just plays the root notes like this when
the chimes come in. If you can clearly hear what he's doing here,
you're doing better than I am.


Bridge part
|-----------------------------------|
|-----------------------------------|
|-----------------------------5-----|
|--7-7---5-7-8-5~---7-7---5-7---5~--|
You could probably play this at a lower position, using the open
A and D strings, but he seems to be playing it this way in live footage.


The quick part where it switches
|----------|
|----------|
|----------|
|--2--3-5--|

The heavy srceam-y part of the pre-chorus
|------------------------------------------------------------------|
|------------------------------------------------------------------|
|------------------------------------------------------------------|
|--2--0-0--2--0-0--2--0-0--3--3-3--2--0-0--2--0-0--2--0-0--5--5-5--|


Chorus
|---------------------------------------------------------------------------|
|---------------------------------------------------------------------------|
|---------------------------------------------------------------------------|
|--2-2-2-2-7-7-7-7-0-0-0-0-9-9-9-9-10-10-10-10-7-7-7-7-12-12-12-12-9-9-9-9--|



A variation of that bridge line, played at the first half 
of the guitar solo -- played in a lower position
|------------------------------------|
|------------------------------------|
|------------------------------------|
|--2-2---0-2-3-0~---2-2---0-2-3-5~---|

Share this post


Link to post
Share on other sites

Join the conversation

You can post now and register later. If you have an account, sign in now to post with your account.

Guest
Reply to this topic...

×   Pasted as rich text.   Restore formatting

  Only 75 emoji are allowed.

×   Your link has been automatically embedded.   Display as a link instead

×   Your previous content has been restored.   Clear editor

×   You cannot paste images directly. Upload or insert images from URL.

Sign in to follow this  

  • Recently Browsing   0 members

    No registered users viewing this page.

×
×
  • Create New...